петак, 04. јануар 2013.

Osvajaci - Marija


SOLO 1:D#m,G#m,C#,F#,C#,D#m,G#m,A#7,D#m............................
D#m               G#m               C#               F#    C#
--------------------------------------------------------------
--------------------------~~~---------------------------------
--------~~~-------4-6-4-3-4-----------------~~~----4-3--------
8-9-8-6-8----6-8-------------3-4-6--3-4-3---3--4-6-----6-4-4-3
-----------9------------------------------6-------------------
--------------------------------------------------------------

D#m               G#m               A#7              D#m
-------------------------------------------------2-1-~~~~-----
--------------------------~~~------------------------4--------
--------~~~-------4-6-4-3-4-----------------~~~3--------------
8-9-8-6-8----6-8-------------3-4-6--3-4-3---3-----------------
-----------9------------------------------6-------------------
--------------------------------------------------------------
D#m         A#7      D#m
Jos su meni noci besane
D#m      C#   F#
a u dusi nevreme
F#      G#m       A#
jer bez tebe proleca        )
A#   D#m        B           )
duga su ko stoleca          )2x u drugom ponavljanju
B        G#m        A#   D#m)   poceti sa D#m
znam taj put, to je nesreca )

SOLO 2:D#m,G#m,A#7,D#m.

D#m               G#m               A#7              D#m
-------------------------------------------------2-1-~~~~-----
--------------------------~~~------------------------4--------
--------~~~-------4-6-4-3-4-----------------~~~3--------------
8-9-8-6-8----6-8-------------3-4-6--3-4-3---3-----------------
-----------9------------------------------6-------------------
--------------------------------------------------------------
D#m       A#7      D#m
Dolaze mi duge godine
D#m       C#   F#
one duge, najduze
F#     G#m      A#
sto mi zivot udisu   )
A#     D#m      B    )
sto na tugu mirisu   )2x
B    G#m     A#   D#m)
gase rec onu najtisu )
 1,1,1.
D#m,C#,B.
Ref:2x
B                        G#m |ako necete svirati D#m,C#,B.
Lezim sam dok senke promicu  |onda svirajte samo D# u dijelu
C#                   F#      |lezim sam dok senke a ne B
dozivam, a usne ne micu
G#m                     D#m
ljubav je od smrti starija
D#m               A#
odlazimo svi pa i ja
                       D#m   1  ,1 ,1.
pamti me po dobru, Marija!!! D#m,C#,B.

SOLO 3:D#m,C#,D#m,C#,B,C#,D#m,B,C#,D#m.

D#m       A#7       D#m
Neka mene zveri okuju
D#m          C#  F#
drugi nek te miluju
F#  G#m         A#
ali nemoj da im das     )
A#   D#m        B       )
moje pesme koje znas    )2x
B     G#m        A#  D#m)
cuvaj njih da me sacuvas)
 1,1,1.
D#m,C#,B.
Ref:2x
u nekim dijelovima gdje A# moze ici i A#7 nekako su slicni

Нема коментара:

Постави коментар