петак, 04. јануар 2013.

Idoli - Rusija Intro




e-12----10-9------------------------9--|-12---10-9------------------|
h-------------12---10----12-10-12------|------------12---10---------|
g--------------------------------------|----------------------12-9--|
d--------------------------------------|----------------------------|
a--------------------------------------|----------------------------|
e--------------------------------------|----------------------------|

Tose Proeski - Ledena


E
U nasem starom zutom soliteru
C#m
price idu u istom smjeru
A                    B
svi govore da si ledena



A kad te vide ti si uvijek sama
neces ni da pricas s nama
bas si slatka i vrlo dosadna


          A
I ne znam ko je lud
         B
da se na tebe pali
A              B
kad ti nesto u glavi fali


E
Ne zanosim se jako cesto
C#m
i dobro znam gde mi je mjesto,
A                       B
a mjesto je moje kraj tebe.

         A
A ja sam opet lud
         B
pa se na tebe palim,
A                B
jer samo ja ti u glavi falim


E
Obuci cu sve bijelo, cisto,
A              B
bijelo, providno uz tijelo
E                     A
a tvoje crne oci, oci crne
       B
gledat ce me vrelo



Ubrat cu dve ruze majske,
ruze da ti kosu zlate
pozvat cu svirace da nas nocas
kroz grad prate

Ni ledena ni dosadna
ti neces biti
do jutra ces sa usana
ti mojih piti

Zdravko Colic - Svadbarskim sokakom


E
Skrenem katkad, slucajno il’ ne…
       Am                 F
U onaj sokak kojim svadbe prolaze…
E
Do tog ugla brojim korake…
         Am                    A7
A od tog ugla dalje brojim poraze…
         Dm
Obicno s jeseni…i kad je oblacno…
         Am                     F
Odbjegla sjenka mi se vrati konacno…
       E                                           Am
Uzalud mijenjam adrese, sam crni vrag mi je donese…tu…

I vjesto smislim nesto utjesno…
U tom sam dobar, kazu, to najbolje znam…
Trudim se…ne uvijek uspjesno…
Tragove svoje da sam sebi zavaram…
Obicno nocu, kad je vjetrovito…
Samoca napusti svoje korito…
Ta mutna rijeka poplavi poljane sjecanja u glavi…svud

              Dm     E
I naprosto se tuga desi…
              Am           F
Jer naprosto si tu gdje jesi…
              Dm         E          Am
I naprosto je trista cuda predrasuda sad
        A7
Izmedzu nas…
                Dm    E
Kad ljubav umre jedan zali…
                Am     F
Kad ljubav umre jednom fali…
             Am
I, bome nije lako…
                     E              Am
Kad naidje sokakom kojim svadbe prolaze…

Ponekad jos osjetim tvoj dah…
Ko ono nekad kad se okrenes u snu…
Kao, lahor…dirne me…na mah…
Kad smo i casa i ja prilicno pri dnu…
Obicno uvijek…i slicnim danima…
Proslost se navali kao planina…
Na tom cu vrhu da sazrem…
Jer samo s njega nekad nazrem…nas…

Osvajaci - Mozda nebo zna


  solo
      C            G           Dm                  Am
    e|------------|-----------|-------------------|------|
    h|--5~--------|-----------|---6-5---6---------|------|
    g|--------7p5-|-7~-----5--|-------7---7-5h7p5-|------|
    d|------------|-----------|-------------------|-7~~--|
    a|------------|-----------|-------------------|------|
    e|------------|-----------|-------------------|------|

      C                          G
    e|-------------------------|-------------------------|
    h|-------------------------|-------------------------|
    g|--7/9-9-10--10/12-10-9~--|--10/12--10-9------------|
    d|-------------------------|---------------12-10-----|
    a|-------------------------|-------------------------|
    e|-------------------------|-------------------------|

      Dm                            Am  Fill
    e|----------------------------|-----------------------
    h|----------------------------|-----------------------
    g|----------------------9-----|------------------12---
    d|--12/14--12-10--12h14----10~|~~-------10-12-14------
    a|----------------------------|---10h12---------------
    e|----------------------------|-----------------------

                  C
      -----------|---------------------------------------|
      -----13----|---15b17r15p13-------------------------|
      --14-------|----------------14--12~~---------------|
      -----------|---------------------------------------|
      -----------|---------------------------------------|
      -----------|---------------------------------------|

      G                               Dm
    e|------------------------------|-------------------------
    h|---15b16r15p13-15-17-13-------|--12/13h15p13\12---13/17~
    g|------------------------14~~--|-------------------------
    d|------------------------------|-------------------------
    a|------------------------------|-------------------------
    e|------------------------------|-------------------------



                          Am
      ------------------|-------------------------------------|
      --12/13h15p13\12~-|-------------------------------------|
      ------------------|--14~~~------------------------------|
      ------------------|-------------------------------------|
      ------------------|-------------------------------------|
      ------------------|-------------------------------------|


      C                           G
    e|--------------------------|--------------------------|
    h|------------------10------|--------------10----------|
    g|----------------9----9-12-|---7~-5/7-7h9----9--------|
    d|-------9-10-12------------|--------------------------|
    a|----12--------------------|--------------------------|
    e|--------------------------|--------------------------|

            ovde zavrsava akusticni deo i pocinje distorsion
      Am
    e|-------------------------------------------------------|
    h|-------------------------------------------------------|
    g|----12b14~~-very-- slow--------------------------------|
    d|-------------------------------------------------------|
    a|-------------------------------------------------------|
    e|-------------------------------------------------------|


      C5  Fill 2               G5                       D
    e|-----------------------|-----------------------|---------
    h|-----------------------|-----------------------|---------
    g|----------------9------|-----------------------|---------
    d|-10~------10-12---10---|--12~-----10-9---------|---------
    a|-----------------------|---------------12--10/-|---12~---
    e|-----------------------|-----------------------|---------


                               A5          H5       C5
      ------------------------|-------------------|------------
      ------------------------|-------------------|------------
      ------------------------|-------------------|------------
      ------10-9--------------|-------------9~----|-----10~~---
      -------------12--10--10h|12~----------------|------------
      -- ---------------------|-------------------|------------

                      G5               D5
                     -------------------------
                     | 1.
      ---------------|-----------------------------------------|
      ---------------|------------------------------------O----|
      --------9------|-----------------------------------------|
      -10-12-----10--|-12~-~~--10p9-10/12~---------------------|
      ---------------|------------------------------------O----|
      ---------------|-----------------------------------------|
      G5                  A5
     ---------------------------------------------------------
     | 2.                    /slow\
    e|------------------|---------------------------------------|
    h|------------------|---------------------------------------|
    g|------------------|----12b14~-12b14-12-10----9h10p9-------|
    d|--12~-10p9~~------|----------------------------------12-9-|
    a|------------------|---------------------------------------|
    e|------------------|---------------------------------------|


     solo se dalje isto svira ispod vokala

    Tab;
    b-bend
    r-r-bend
    h-hamer-on
    p-pull-off
    /-slide down
    \-slide up
    ~-vibrato
    Fill-da bi postigli bolji efekat sola prebacite
    na singl nek magnet ili ko sta vec svira znaci nek magnet
    Fill 2- vratiti na brige magnet

Azra - Jovano Jovanke


E F E     F  E
Jovano, Jovanke
Am              Dm
Kraj Vardarot sedis mori
G             C
Belo platno belis
Am          Dm
Belo platno belis duso
           E FE
Se na gore gledas


Jovano, Jovanke
Tvojata majka mori
Tebe ne ce pusta
So mene dovajdas duso
Srce moje, Jovano

Jovano, Jovanke
Jas te tebe cekam mori
Doma da mi dojdes
A ti ne dovajdas duso
Srce moje, Jovano

moze i solo (kao pratnja od drugog stiha u strofi):
E|--0--0-0-0--0---0-1-1-0--
H|--------------3----------
G|-------------------------

E|-----------------0-0-----
H|-3--3-3-3--3-1-3-----3---
G|-------------------------

E|----------0-1-1-0--------
H|-1--1-1-3---------3--3-1- pa onda E F E
G|-------------------------

Osvajaci - Marija


SOLO 1:D#m,G#m,C#,F#,C#,D#m,G#m,A#7,D#m............................
D#m               G#m               C#               F#    C#
--------------------------------------------------------------
--------------------------~~~---------------------------------
--------~~~-------4-6-4-3-4-----------------~~~----4-3--------
8-9-8-6-8----6-8-------------3-4-6--3-4-3---3--4-6-----6-4-4-3
-----------9------------------------------6-------------------
--------------------------------------------------------------

D#m               G#m               A#7              D#m
-------------------------------------------------2-1-~~~~-----
--------------------------~~~------------------------4--------
--------~~~-------4-6-4-3-4-----------------~~~3--------------
8-9-8-6-8----6-8-------------3-4-6--3-4-3---3-----------------
-----------9------------------------------6-------------------
--------------------------------------------------------------
D#m         A#7      D#m
Jos su meni noci besane
D#m      C#   F#
a u dusi nevreme
F#      G#m       A#
jer bez tebe proleca        )
A#   D#m        B           )
duga su ko stoleca          )2x u drugom ponavljanju
B        G#m        A#   D#m)   poceti sa D#m
znam taj put, to je nesreca )

SOLO 2:D#m,G#m,A#7,D#m.

D#m               G#m               A#7              D#m
-------------------------------------------------2-1-~~~~-----
--------------------------~~~------------------------4--------
--------~~~-------4-6-4-3-4-----------------~~~3--------------
8-9-8-6-8----6-8-------------3-4-6--3-4-3---3-----------------
-----------9------------------------------6-------------------
--------------------------------------------------------------
D#m       A#7      D#m
Dolaze mi duge godine
D#m       C#   F#
one duge, najduze
F#     G#m      A#
sto mi zivot udisu   )
A#     D#m      B    )
sto na tugu mirisu   )2x
B    G#m     A#   D#m)
gase rec onu najtisu )
 1,1,1.
D#m,C#,B.
Ref:2x
B                        G#m |ako necete svirati D#m,C#,B.
Lezim sam dok senke promicu  |onda svirajte samo D# u dijelu
C#                   F#      |lezim sam dok senke a ne B
dozivam, a usne ne micu
G#m                     D#m
ljubav je od smrti starija
D#m               A#
odlazimo svi pa i ja
                       D#m   1  ,1 ,1.
pamti me po dobru, Marija!!! D#m,C#,B.

SOLO 3:D#m,C#,D#m,C#,B,C#,D#m,B,C#,D#m.

D#m       A#7       D#m
Neka mene zveri okuju
D#m          C#  F#
drugi nek te miluju
F#  G#m         A#
ali nemoj da im das     )
A#   D#m        B       )
moje pesme koje znas    )2x
B     G#m        A#  D#m)
cuvaj njih da me sacuvas)
 1,1,1.
D#m,C#,B.
Ref:2x
u nekim dijelovima gdje A# moze ici i A#7 nekako su slicni

четвртак, 03. јануар 2013.

Djordje Balasevic - Sevdalinka Intro


E||-------------------|-----------------------------||
B||-1p0---------------|-----------1-3-1-0h1p0-------||
G||----2-1-2----------|-----1-2-4-------------2-1-2-||
D||---------2-3-0-2---|-2-4-------------------------||
A||-------------------|-----------------------------||
E||-----------------0-|-----------------------------||